First off detune your guitar 3 semitones (trust me)

i.e instead of EADGBD you need C#F#BEG#C#

 

BANNED FROM THE END OF THE WORLD

 

RIFF #1

 

C#--5-5-5-5--------------------------------------

G#--5-5-5-5-7777-0-----------------------------

E  ------------7777---0---------------------------

B  -------------------------------------------------

F#--------------------------------------------------

C#-------------------------------------------------

 

RIFF#1 LEADING INTO THE CHORUS

 

C#--5-5-5-5------------8-10-8-----8-10-8---------

G#--5-5-5-5-7777-0-----------10----------10------

E  ------------7777------------------------------------

B  ------------------------------------------------------

F#------------------------------------------------------

C#-----------------------------------------------------

 

CHORUS

 

C#--5--------5-------5----------------0--------------

G#-----7-x7---7-x7---7-x7-slide----3----0-----------

E  -----7-x7---7-x7---7-x7-slideó2------------------

B  -----------------------------------------------------

F#-----------------------------------------------------

C#-----------------------------------------------------

 

SOLO

 

C#---------------------------------------------------------------

G#--15-15-1919-17-----19---00012--1512-----12----

E  -----17------------1919-19--00012--------15-12----

B  ----------------------------------------------------------------

F#----------------------------------------------------------------

C#---------------------------------------------------------------

       for the final bar stay on the 12th fret at *this* point