"Living in Exile"

Verse-Guitar 1
Repeated w/ variation

E]--7-4---5-5-------------7-4---5--5-5------------
B]------------------5------------------------5----
G]4-----4-------6-6-----4-----4---------6---------
D]------------------------------------------------
A]------------------------------------------------
E]------------------------------------------------

Verse-Guitar 2

E]------------------------------------------------
B]------------------------------------------------
G]---------2--------------------------------------
D]4-----------------------------------------------
A]-----------------------2------------------------
E]------------------------------------------------

Chorus-Guitar 1

E]-----------------------------------------------------------------------------------------------------------
B]--------------------------------------5-5-3-3-2-2-0---------------------------------------5-5-3-3-2-2-0----
G]4--2--4------4--2--4------4--2--4-------------------2-4--2--4-------4--2--4------4--2--4----------------2-4
D]--------2h4----------2h4----------2h4-------------------------2h4-----------2h4----------2h4---------------
A]-----------------------------------------------------------------------------------------------------------
E]-----------------------------------------------------------------------------------------------------------

Chorus-Guitart 2

E]------------------------------------------------------------------------------------------------------------
B]------------------------------------------------------------------------------------------------------------
G]4--4-------6--6--------7--7---------9--9-----------4--4-----------4--4---------4--4---------4--4------------
D]4--4-------6--6--------7--7---------9--9-----------4--4-----------6--6---------7--7---------9--9------------
A]2--2-------4--4--------5--5---------7--7-----------2--2-----------4--4---------5--5---------7--7------------
E]------------------------------------------------------------------------------------------------------------

Part after 2nd chorus (repeated)-
Guitar 1                                          Guitar 2

E]--------------------------------------           
E]-------------------------------
B]--------------------------------------           
B]-------------------------------
G]6--6/2\6--6/2\6--6/2\6 6/2\6----------           
G]-------------------------------
D]--------------------------------------           
D]4-----2-----------------------
A]--------------------------------------           
A]---------------2------4-------
E]--------------------------------------           
E]--------------------------------