Get Up

Guitar 2

E]-----------------------------------------------------------------------------------
B]-----------------------------------------------------------------------------------
G]-------------------------------------------11-11-11-11--11-11-11-11-11--11-11-11-11
D]14-14-14-14--14---14-13-13-13---13-13-13---11-11-11-11--11-11-11-11-11--11-11-11-11
A]11-11-11-11--11---11-11-11-11---11-11-11---9--9--9--9---9--9--9--9--9---9--9--9--9-
E]-----------------------------------------------------------------------------------

Guitar 1- A

E]4-4--------4-4------------------------------2-2------------
B]4-4--3-----4-4--3-------3----------------------------------
G]-------4----------4-4--------4-4-4/6-6-4-4-------4-4-1-----
D]-----------------------------------------------------------
A]-----------------------------------------------------------
E]-----------------------------------------------------------

Guitar 1-B

E]-------------------------2-----------
B]4-4---3-4-3--------------------------
G]----------------4-4/6-4-----4---1----
D]-------------------------------------
A]-------------------------------------
E]-------------------------------------

"I hit the mark" part repeated

E]2--2--2--2--2---2--2--2--2--2----
B]-0--0--0--0--0---0--0--0--0--0---
G]--1--1--1--1--1---1--1--1--1--1--
D]---------------------------------
A]---------------------------------
E]---------------------------------

Solo
Repeat Twice
-
E]2------------------------------2---------------------------
B]--4-2------0----------0----------4-2-------0-------0-------
G]-------3-1---1-0-1-1----1--1-0-------3-1-----1-0h1---1--1-0
D]-----------------------------------------------------------
A]-----------------------------------------------------------
E]-----------------------------------------------------------

Then Repeat 4 Times

E]2------------------------------------
B]--4-2------0-------0-----2-0---------
G]-------3-1---1-0-1---1/3------3------
D]---------------------------------4---
A]-------------------------------------
E]-------------------------------------

End

E]2--------------------2---------------2----
B]-4-2------------------4-2-----------------
G]------3----1---------------3----1---------
D]----------------4-------------------------
A]------------------------------------------
E]------------------------------------------