Good Things

Verses - Guitar Part 1 (repeated)

E]0-0-0-0-0-0-0-0/4-4-4-4-4-4---------------------------------------
B]-------------------------------1-1-1-1-1-1-1-1/2-2-2-2-2-2-2-2----
G]---------------------------1-1------------------------------------
D]---------------------------------------------------------------2-2
A]------------------------------------------------------------------
E]------------------------------------------------------------------

Verse - Guitar Part 2 (repeated following part 1)

E]--------------------------------------------------------------
B]--------------------------------------------------------------
G]--------------------------------------------------------------
D]--------------------------------------------------------------
A]7----7--7------------4-4-4-----4-4-4-----------------4-4-4-4/2
E]-----------7--5--4---------4---------4-2-2-2-2-2--4-----------


Chorus (repeated)

E]-------------------------------------------------------------------------------
B]-------------------------------------------------------------------------------
G]-------------------------------------------------------------------------------
D]7-7-7-7-7-7-7-7/11-11-11-11-11-11-11-11--6-6-6-6-6-6-6-6/11-11-11-11-11-11-11-11
A]7-7-7-7-7-7-7-7/11-11-11--9-11-11-11--9--6-6-6-6-6-6-6-6/11-11-11--9-11-11-11-9
E]5-5-5-5-5-5-5-5/9--9--9--9--9--9--9--9---4-4-4-4-4-4-4-4/9--9--9--9--9--9--9--9

Guitar Part 1 - repeated ("This time it'll be all right")

E]----4-----4---4-----4------------
B]5-5---5-5---5---5-5----5-5-0-0-0-

Guitar Part 2 - repeated

A]7--7---7--7---7---9------------
E]----------------------7-7-7-7-7