One More Hour

Guitar Part 1

Verses - repeated

E]---------------------------------------------------------
B]------0---------0---------------------------0---------0--
G]-2-1-2-2-2-1---2-2--2-1-2-0---2-1-2-0--2-1-2-2-2-1---2-2-
D]------------------0----0---2-0---0---2------------------0
A]0---0---0----0------------------------0---0---0---0------
E]---------------------------------------------------------

"Oh you've got the darkest eyes" part

E[----------------------------------------------------------------
B]----------------------------------------------------------------
G]----------------7777777777777777----------------7777777777777777
D]7777777777777777777777777777777777777777777777777777777777777777
A]7777777777777777555555555555555577777777777777775555555555555555
E]5555555555555555----------------5555555555555555----------------

Chorus

E]----------------------------------------------------------------
B]----------------------------------------------------------------
G]----------------6--66--66--66--6----------------7--77--77--77--7
D]7--77--77--77--76--66--66--66--67--77--77--77--77--77--77--77--7
A]7--77--77--77--74--44--44--44--57--77--77--77--75--77--77--77--7
E]5--55--55--55--5----------------5--55--55--55--5----------------

Guitar Part 2

Verses and "You've got the darkest eyes" part
(Played as 16th noted as well but spaced for easier reading)

E]12-12-12-12-12-12-12-12-12-12-12-12-12-12-12-12-5-5-5-5-5-5-5-5-4-4-4-4-4-4-4-4
B]14-14-14-14-14-14-14-14-14-14-14-14-14-14-14-14-7-7-7-7-7-7-7-7-7-7-7-7-7-7-7-7
G]14-14-14-14-14-14-14-14-14-14-14-14-14-14-14-14-7-7-7-7-7-7-7-7-7-7-7-7-7-7-7-7
D]-------------------------------------------------------------------------------
A]-------------------------------------------------------------------------------
E]-------------------------------------------------------------------------------

Chorus - repeated

E]-------------------------------------------------------
B]----------------2H3P2-0--2H3P2-0--2H3P2-0--2H3P2-0-----
G]2--22--22--22--2------------------------------------2-2
D]2--22--22--22--2--------2--------2--------2--------2-2-
A]0--00--00--00--0---------------------------------------
E]-------------------------------------------------------

"Don't say another word" part

E]---------------------------------------------------------
B]---------------------------------------------------------
G]4--4-4-2--2-2-0--0-0-2--2-2-4--4-4-2--2-2-0-0------------
D]----------------------------------------------2-2-4-4-2-2
A]---------------------------------------------------------
E]---------------------------------------------------------

E]---------------------------------------------------------
B]---------------------------------------------------------
G]4--4-4-2--2-2-0--0-0-2--2-2-4--4-4-2--2-2-0-0------------
D]----------------------------------------------2-2-4-4-2-2
A]---------------------------------------------------------
E]---------------------------------------------------------

E]---------------------------------------------------------
B]---------------------------2H3P2-----2--3-3-0-0-2-2------
G]4--4-4-2--2-2-0--0-0-2--2-2-----4-2-4-2----------4-4-2---
D]---------------------------------------------------------
A]---------------------------------------------------------
E]---------------------------------------------------------

E]---------------------------------------------------------
B]---------------------------2H3P2-0-0-2H3P2-0-0-2---------
G]4--4-4-2--2-2-0--0-0-2--2-2-------2---------2------2-----
D]-------------------------------------------------2-------
A]---------------------------------------------------------
E]---------------------------------------------------------