The Last Song

Guitar 1
Verses and chorus

E]----------------------------------------------------
B]----------------------------------------------------
G]--------------------------4--4-4-4-4-4--------------
D]6--6-6-6-6-6-2--2-2-2-2-2-4--4-4-4-4-4-2--2-2-2-2-2-
A]6--6-6-6-6-6-2--2-2-2-2-2-2--2-2-2-2-2-2--2-2-2-2-2-
E]4--4-4-4-4-4-0--0-0-0-0-0--------------0--0-0-0-0-0-

Guitar 2
Verse (chorus the same as 1)

E]--------------------------------------------------------
B]--------------------------------------------------------
G]--------------------------------------------------------
D]--------------------------4--4-4-6-6-6-4---4-4-4-4-4-4/3
A]--------------------------------------------------------
E]--------------------------------------------------------

Both guitars
"Can you feel me coming after you" part

E]----------------------------------------------------------------
B]----------------------------------------------------------------
G]------------------------------------------------------4-4-4-4-4-
D]6-6-6-6-6-6-6-6-2-2-2-2-2-2-2-2-6-6-6-6-6-6-6-6-2-2-2-4-4-4-4-4-
A]6-6-6-6-6-6-6-6-2-2-2-2-2-2-2-2-6-6-6-6-6-6-6-6-2-2-2-2-2-2-2-2-
E]4-4-4-4-4-4-4-4-0-0-0-0-0-0-0-0-4-4-4-4-4-4-4-4-0-0-0-----------