First off detune your guitar 3 semitones (trust me)

i.e instead of EADGBD you need C#F#BEG#C#

This is pretty much essential for Carrie’s stuff because she uses open strings so much.

 

#1 MUST HAVE

 

Verse part 1 (bearer of the flag..)

 

C#---------------------12-12—12----------------------12-------------

G#---------------------12-12—12----------------------12-------------

E---121212-12-10---10-10--10—121212-12-10---10-9-7-5-7-0

B--------------------12--------------------------------12----------------

F#--------------------------------------------------------------------------

C#--------------------------------------------------------------------------

 

Verse part 2 (but they took our ideas…)

 

C#------------------------------

G#------------------------------

E---12-12-12-10-----7-7-77-

B------------------12--9-9-99-

F#------------------------------

C#------------------------------

 

Chorus

 

C#---1-2-3-------1-1---1-------1-------

G#---1-2-3-------1-1-3---33-1---1-3--

E-------—----0--------------------------

B--------------0---------------------------

F#-----------------------------------------

C#-----------------------------------------

 

End of 2ND Chorus leading to No More section

 

C#--1-1---1-------1------1-----------3333------3333-33-5slide7--55-33--55-3-3---

G#--1-1-3---33-1—1-3---3-0-111-0000-111-0000-11-3slide5-33-11—33-1-0--

E--------------------------------------------------------------------------------------------

B---------------------------------------------------------------------------------------------

F#--------------------------------------------------------------------------------------------

C#--------------------------------------------------------------------------------------------

 

End final chorus with

 

C#--3--3-         ---1-2-3-                            --1--

G#--1--0-  X4  ---1-2-3-  X4 ending on  --1--