"One Beat" - Ashlyn

Guitar Part 1

Played throughout verses

   A          F#
E]---------------------------------------------
B]---------------------------------------------
G]2-2-2-2-2---------------2-2-2-2-2------------
D]2-2-2-2-2---4-4-4-4-4---2-2-2-2-2---4-4-4-4-4
A]0-0-0-0-0---4-4-4-4-4---0-0-0-0-0---4-4-4-4-4
E]------------2-2-2-2-2---------------2-2-2-2-2

Played throughout chorus

When this pattern ends you return to the A chord
of the verse pattern.

E]-----------------------------------------------
B]-----------------------------------------------
G]-----------------------------------------------
D]4---4---4422----4---4---4422----4---4---4422---
A]4---4-------442-4---4-------442-4---4-------442
E]2---2-----------2---2-----------2---2----------

GUitar 2 Part

Played throughout the verses

When the song starts off the other guitar part
is played and this part starts at the point
marked with +.

                                  +
E]----------------------2-----------------------2
B]----------0---------------------2~0------------
G]2-2-2-2-2---------------2-2-2-2----------------
D]------------4-4-4-4-4---------------4-4-4-4-4--
A]-----------------------------------------------
E]-----------------------------------------------

Played during chorus

This small part is played halfway through the
chorus and repeated.

E]-----------------------------------
B]------2-----2-----------2-----2----
G]2--2-----2--------2--2-----2-------
D]---------------4-----------------4-
A]-----------------------------------
E]-----------------------------------