Sleater-Kinney
"Funeral Song"

Guitar Part 1
Verse

Intro pattern also repeated before chorus
{--------INTRO----------}
E]----------------------------------------------------------
B]----------------------------------------------------------
G]--6------6------6-----6------6----9---4---6----6--6-------
D]--6------6------6-----6------6----9---4---6----6--6-------
A]4-----4-4---4-4----4-4----4-4----7---2---4-----4--4-------
E]----------------------------------------------------------

Chorus

E]-------------------------------
B]-------------------------------
G]--------4-4-4-4-6-6-6-6-6-6-6-6
D]6-6-6-6-4-4-4-4-6-6-6-6-6-6-6-4
A]6-6-6-6-2-2-2-2-4-4-4-4-4-4-4-4
E]4-4-4-4------------------------

During Solo

E]--------------------------------------------------
B]--------------------------------------------------
G]--6----9--4----6----6--6----6----9---4---6----6--6
D]--6----9--4----6----6--6----6----9---4---6----6--6
A]4----7---2---4------4--4--4----7---2---4------4--4
E]--------------------------------------------------

E]---------------------------------------------------------------------
B]---------------------------------------------------------------------
G]6---6--4---4---------------6---6--4---4------------------------------
D]6---6--4---4--4-2-4-6---6--6---6--4---4--4-2-4-6---6-6---6-6---6-6---
A]4---4--2---2--4-2-4-6---6--4---4--2---2--4-2-4-6---6-6---6-6---6-6---
E]--------------2-0-2-4---4----------------2-0-2-4---4-4---4-4---4-4---
Guitar Part 2
Begins at 1st chorus (repeated 4x)

E]---------------------------------
B]----------------12----12---------
G]--/13--13-13-13----13----13------
D]-----------------------------11~~
A]---------------------------------
E]---------------------------------

Verse After Chorus

E]--------------------------------------------------------
B]--------------12--------------------------12------------
G]-/13-13-13~13----13-13-13~13-/13-13-13~13----13-13-13~13
D]--------------------------------------------------------
A]--------------------------------------------------------
E]--------------------------------------------------------

E]---------------------------------------------------------------------------------------------
B]---------------------------------------------------------------------------------------------
G]---------------------------------------------------------------------------------------------
D]-/11-11-11-11-9-9-9-9----------------------/11-11-11-11-9-9-9-9------------------------9---11
A]----------------------9-7-9-11~----11------------------------------9-7-9-11~----11-----------
E]---------------------------------------------------------------------------------------------

Solo

E]----------------------------------------------------------------
B]-----------------12-9------------------------12------12-9-------
G]----------9--9-9------9---------------9--9-9----9-9--------9----
D]11--11-11---------------11--11-11-11--------------------------11
A]----------------------------------------------------------------
E]----------------------------------------------------------------

E]-----------------------------------------------------------------------------
B]-----------------------------------------------------------------------------
G]-------------9-------------------------------9-------------------------------
D]11-11-11-11---9h11p9-9-------------------11---9h11p9-9-----------------------
A]-------------------------9-7-9-11---11-----------------9-7-9-11---11-11-11-11
E]-----------------------------------------------------------------------------