Quarter to Three

Guitar 1

Verse Patterns
E]--------------------------------------------------
B]9--------------9----------------------------------
G]--9/6--6--6------9/6--6--6--6--6/4-4\6------------
D]-------------------------------------------7-7----
A]------------------------------------------------7-
E]--------------------------------------------------

E]-------------------------------------------------------
B]-------------------------------------------------------
G]-------------------------------------------------------
D]6--9-------6--6-6---------6--9------6--6-6-------------
A]---------7---7----7--7-7----------7---7----7--7--------
E]-------------------------------------------------------

E]-------------------------
B]9------------------------
G]-9-9---------------------
D]------9h11-9/7-9-7-------
A]-------------------9h11/7
E]-------------------------


"Ooh...Ah" Part
E]------------------------------------------
B]------------------------------------------
G]-----------6-----------------------6------
D]7----------------6-----7-----------------6
A]-----7------------------------7-----------
E]------------------------------------------

Chorus
E]-------------------------------------------------------------------
B]-------------------------------------------------------------------
G]-----------------9--9-11--9-11--9----------------------------------
D]11--9-11--9-11--9-----------------11--9-11--9-11--9----9-----------
A]----------------------------------------------------11---11-9------
E]---------------------------------------------------------------12--

Prior to Solo
E]-------------------------------------------------------------
B]-------------------------------------------------------------
G]-------------------------------------------------------------
D]-------------------------------------------------------------
A]-------------------------------------------------------------
E]9--9/12-12--12/14-14-12--12-12-9--9/12-12--12/14-14-12--12-12


Solo (played twice)
E]------12--------------------------------------12--------------------------------
B]12-12----12-14/12------------------------12-12----12-14/12----------------------
G]--------------------------------------------------------------------------------
D]--------------------14--14--14--14-14-14--------------------14--14--14--14-14-14
A]--------------------------------------------------------------------------------
E]--------------------------------------------------------------------------------


E]--------------------------------------------------------------------------------
B]-----------12----------------------------------------12-------------------------
G]13-13-14-13----14-13--14-13---------------13-13-14-14----14-13--14-13-----------
D]-----------------------------13-14--14-14------------------------------13-14--14
A]--------------------------------------------------------------------------------
E]--------------------------------------------------------------------------------

Guitar 2

Verses, Before Solo, & During Solo
E]---------------------------
B]---------------------------
G]---------------------------
D]0--0--0----2--2------------
A]-----------------2--2-2-2--
E]---------------------------

"Ooh...Ah" Part
E]-------------------------------
B]-------------------------------
G]-------------------------------
D]-------------------------------
A]0-------------------0----------
E]----------2-------------------2

Chorus
E]--------------------------------------------
B]--------------------------------------------
G}--------------------------------------------
D]9-----------7-----------6-------------------
A]7-----------5-----------4-------------------
E]7-----------5-----------4-------------------