First off detune your guitar 3 semitones (trust me)
i.e instead of EADGBD you need C#F#BEG#C#
This is pretty much essential for Carrie’s stuff because she uses open strings so much.

YOUTH DECAY

Verse

C#---------------------------------------------------------------------------------------------------------------------------------------------
G#---------6-8-0--------6-8-10-0-------6-8-0-8---8-10-0--------6-8-0--------6-8-10-0---------11-9----11-9-----11-11-9----
E----7-7-7-------7-7-7------------7-7-7----------0----------7-7-7--------7-7-7-------------10-10-------10-------10------------0--
B-----------------------------------------------------------------------------------------------------------------------------------------------
F#---------------------------------------------------------------------------------------------------------------------------------------------
C#---------------------------------------------------------------------------------------------------------------------------------------------


Chorus chords

C#----------------------------
G#------3------3-------------
E--------2------0-------3----
B--------0------0-------3----
F#-----------------------1----
C#----------------------------

Middle section (I’ve compressed it to include the beginning & end – you’ll get the idea)

C#----------------------------------------------------------------------------------------------------------------------------------------------
G#---------------------12-12-12------10-0-----------------10-12-0-----------------10-0-----------------------------------------------
E------7—7slide3-0--10-10-10-12-------10-10-10-12------------10-10-10-12--------7slide3-0—00000000-777slide3-0--
B------------------------------------------------------------------------------------------------------------------------------------------------
F#-----------------------------------------------------------------------------------------------------------------------------------------------
C#----------------------------------------------------------------------------------------------------------------------------------------------

I’m not sure what Carrie plays at the very end of the song (with the big drum roll). I just play this chord

C#---------10----
G#---------10----
E------------7-----
B------------0-----
F#----------------
C#----------------

As fast as I can – just do whatever you prefer I guess.